ISO-10303-21;
HEADER;
FILE_DESCRIPTION (( 'STEP AP203' ),
    '1' );
FILE_NAME ('MQWP-25.4-1310.STEP',
    '2020-12-22T09:29:26',
    ( '' ),
    ( '' ),
    'SwSTEP 2.0',
    'SolidWorks 2020',
    '' );
FILE_SCHEMA (( 'CONFIG_CONTROL_DESIGN' ));
ENDSEC;

DATA;
#1 = ORIENTED_EDGE ( 'NONE', *, *, #41, .T. ) ;
#2 = AXIS2_PLACEMENT_3D ( 'NONE', #102, #149, #118 ) ;
#3 = DIRECTION ( 'NONE',  ( 0.000000000000000000, 0.000000000000000000, 1.000000000000000000 ) ) ;
#4 = FACE_OUTER_BOUND ( 'NONE', #92, .T. ) ;
#5 = CARTESIAN_POINT ( 'NONE',  ( 2.449293598294706907E-16, 3.673940397442059868E-16, -3.000000000000000000 ) ) ;
#6 = LOCAL_TIME ( 17, 29, 26.00000000000000000, #132 ) ;
#7 = PERSON_AND_ORGANIZATION ( #114, #18 ) ;
#8 = APPROVAL ( #95, 'UNSPECIFIED' ) ;
#9 = CALENDAR_DATE ( 2020, 22, 12 ) ;
#10 = AXIS2_PLACEMENT_3D ( 'NONE', #144, #34, #54 ) ;
#11 = PRODUCT_RELATED_PRODUCT_CATEGORY ( 'detail', '', ( #160 ) ) ;
#12 = CARTESIAN_POINT ( 'NONE',  ( 0.000000000000000000, 0.000000000000000000, 3.000000000000000000 ) ) ;
#13 = DIRECTION ( 'NONE',  ( -1.000000000000000000, -0.000000000000000000, -0.000000000000000000 ) ) ;
#14 = ORIENTED_EDGE ( 'NONE', *, *, #173, .F. ) ;
#15 = ADVANCED_FACE ( 'NONE', ( #163 ), #116, .F. ) ;
#16 = ORIENTED_EDGE ( 'NONE', *, *, #41, .F. ) ;
#17 = VECTOR ( 'NONE', #127, 1000.000000000000000 ) ;
#18 = ORGANIZATION ( 'UNSPECIFIED', 'UNSPECIFIED', '' ) ;
#19 = EDGE_LOOP ( 'NONE', ( #151, #71 ) ) ;
#20 = DIRECTION ( 'NONE',  ( 0.000000000000000000, 0.000000000000000000, 1.000000000000000000 ) ) ;
#21 = PRODUCT_DEFINITION_SHAPE ( 'NONE', 'NONE',  #35 ) ;
#22 = DIRECTION ( 'NONE',  ( -1.000000000000000000, -0.000000000000000000, -0.000000000000000000 ) ) ;
#23 = PERSON_AND_ORGANIZATION_ROLE ( 'design_owner' ) ;
#24 = AXIS2_PLACEMENT_3D ( 'NONE', #42, #123, #130 ) ;
#25 = PRODUCT_DEFINITION_FORMATION_WITH_SPECIFIED_SOURCE ( 'ANY', '', #160, .NOT_KNOWN. ) ;
#26 = CC_DESIGN_DATE_AND_TIME_ASSIGNMENT ( #157, #51, ( #72 ) ) ;
#27 = EDGE_LOOP ( 'NONE', ( #139, #152, #1, #14 ) ) ;
#28 = VERTEX_POINT ( 'NONE', #60 ) ;
#29 = CC_DESIGN_PERSON_AND_ORGANIZATION_ASSIGNMENT ( #113, #39, ( #25 ) ) ;
#30 = CARTESIAN_POINT ( 'NONE',  ( 0.9999999999999995559, 0.000000000000000000, 0.000000000000000000 ) ) ;
#31 = DATE_AND_TIME ( #108, #174 ) ;
#32 = ADVANCED_BREP_SHAPE_REPRESENTATION ( 'MQWP-25.4-1310', ( #69, #154 ), #62 ) ;
#33 = CALENDAR_DATE ( 2020, 22, 12 ) ;
#34 = DIRECTION ( 'NONE',  ( -1.000000000000000000, -0.000000000000000000, -0.000000000000000000 ) ) ;
#35 = PRODUCT_DEFINITION ( 'UNKNOWN', '', #25, #146 ) ;
#36 = AXIS2_PLACEMENT_3D ( 'NONE', #150, #148, #101 ) ;
#37 =( LENGTH_UNIT ( ) NAMED_UNIT ( * ) SI_UNIT ( .MILLI., .METRE. ) );
#38 = SHAPE_DEFINITION_REPRESENTATION ( #21, #32 ) ;
#39 = PERSON_AND_ORGANIZATION_ROLE ( 'design_supplier' ) ;
#40 = CC_DESIGN_PERSON_AND_ORGANIZATION_ASSIGNMENT ( #67, #165, ( #35 ) ) ;
#41 = EDGE_CURVE ( 'NONE', #28, #59, #141, .T. ) ;
#42 = CARTESIAN_POINT ( 'NONE',  ( 0.000000000000000000, 0.000000000000000000, 0.000000000000000000 ) ) ;
#43 = FACE_OUTER_BOUND ( 'NONE', #74, .T. ) ;
#44 = CC_DESIGN_SECURITY_CLASSIFICATION ( #72, ( #25 ) ) ;
#45 = CYLINDRICAL_SURFACE ( 'NONE', #2, 3.000000000000000000 ) ;
#46 = CARTESIAN_POINT ( 'NONE',  ( 2.449293598294706907E-16, 0.000000000000000000, 3.000000000000000000 ) ) ;
#47 = DIRECTION ( 'NONE',  ( 0.000000000000000000, 0.000000000000000000, 1.000000000000000000 ) ) ;
#48 = CIRCLE ( 'NONE', #135, 3.000000000000000000 ) ;
#49 = CC_DESIGN_APPROVAL ( #85, ( #25 ) ) ;
#50 = DIRECTION ( 'NONE',  ( 0.000000000000000000, 0.000000000000000000, 1.000000000000000000 ) ) ;
#51 = DATE_TIME_ROLE ( 'classification_date' ) ;
#52 = DATE_AND_TIME ( #9, #115 ) ;
#53 = APPROVAL_DATE_TIME ( #156, #8 ) ;
#54 = DIRECTION ( 'NONE',  ( 0.000000000000000000, 0.000000000000000000, 1.000000000000000000 ) ) ;
#55 = PERSON_AND_ORGANIZATION ( #114, #18 ) ;
#56 = APPROVAL_PERSON_ORGANIZATION ( #142, #85, #128 ) ;
#57 = LINE ( 'NONE', #76, #17 ) ;
#58 = CC_DESIGN_PERSON_AND_ORGANIZATION_ASSIGNMENT ( #99, #97, ( #72 ) ) ;
#59 = VERTEX_POINT ( 'NONE', #46 ) ;
#60 = CARTESIAN_POINT ( 'NONE',  ( 0.9999999999999995559, 0.000000000000000000, 3.000000000000000000 ) ) ;
#61 = ADVANCED_FACE ( 'NONE', ( #91 ), #45, .T. ) ;
#62 =( GEOMETRIC_REPRESENTATION_CONTEXT ( 3 ) GLOBAL_UNCERTAINTY_ASSIGNED_CONTEXT ( ( #75 ) ) GLOBAL_UNIT_ASSIGNED_CONTEXT ( ( #37, #98, #120 ) ) REPRESENTATION_CONTEXT ( 'NONE', 'WORKASPACE' ) );
#63 = APPROVAL_DATE_TIME ( #52, #167 ) ;
#64 = ADVANCED_FACE ( 'NONE', ( #43 ), #175, .F. ) ;
#65 = PERSON_AND_ORGANIZATION ( #114, #18 ) ;
#66 = AXIS2_PLACEMENT_3D ( 'NONE', #124, #126, #103 ) ;
#67 = PERSON_AND_ORGANIZATION ( #114, #18 ) ;
#68 = APPROVAL_PERSON_ORGANIZATION ( #170, #167, #109 ) ;
#69 = MANIFOLD_SOLID_BREP ( 'Ðý×', #107 ) ;
#70 = EDGE_CURVE ( 'NONE', #117, #28, #111, .T. ) ;
#71 = ORIENTED_EDGE ( 'NONE', *, *, #70, .F. ) ;
#72 = SECURITY_CLASSIFICATION ( '', '', #172 ) ;
#73 = ORIENTED_EDGE ( 'NONE', *, *, #164, .T. ) ;
#74 = EDGE_LOOP ( 'NONE', ( #134, #140 ) ) ;
#75 = UNCERTAINTY_MEASURE_WITH_UNIT (LENGTH_MEASURE( 1.000000000000000082E-05 ), #37, 'distance_accuracy_value', 'NONE');
#76 = CARTESIAN_POINT ( 'NONE',  ( 0.000000000000000000, 3.673940397442059868E-16, -3.000000000000000000 ) ) ;
#77 = APPLICATION_CONTEXT ( 'configuration controlled 3d designs of mechanical parts and assemblies' ) ;
#78 = APPROVAL_STATUS ( 'not_yet_approved' ) ;
#79 = APPROVAL_DATE_TIME ( #143, #85 ) ;
#80 = CALENDAR_DATE ( 2020, 22, 12 ) ;
#81 = LOCAL_TIME ( 17, 29, 26.00000000000000000, #169 ) ;
#82 = DIRECTION ( 'NONE',  ( -1.000000000000000000, -0.000000000000000000, -0.000000000000000000 ) ) ;
#83 = COORDINATED_UNIVERSAL_TIME_OFFSET ( 8, 0, .AHEAD. ) ;
#84 = CC_DESIGN_APPROVAL ( #167, ( #35 ) ) ;
#85 = APPROVAL ( #78, 'UNSPECIFIED' ) ;
#86 = APPLICATION_CONTEXT ( 'configuration controlled 3d designs of mechanical parts and assemblies' ) ;
#87 = CYLINDRICAL_SURFACE ( 'NONE', #24, 3.000000000000000000 ) ;
#88 = ORIENTED_EDGE ( 'NONE', *, *, #104, .T. ) ;
#89 = AXIS2_PLACEMENT_3D ( 'NONE', #93, #82, #20 ) ;
#90 = ORIENTED_EDGE ( 'NONE', *, *, #133, .F. ) ;
#91 = FACE_OUTER_BOUND ( 'NONE', #27, .T. ) ;
#92 = EDGE_LOOP ( 'NONE', ( #73, #88, #90, #16 ) ) ;
#93 = CARTESIAN_POINT ( 'NONE',  ( 2.449293598294706907E-16, 0.000000000000000000, 0.000000000000000000 ) ) ;
#94 = CC_DESIGN_PERSON_AND_ORGANIZATION_ASSIGNMENT ( #55, #122, ( #25 ) ) ;
#95 = APPROVAL_STATUS ( 'not_yet_approved' ) ;
#96 = CARTESIAN_POINT ( 'NONE',  ( 0.9999999999999995559, 0.000000000000000000, 0.000000000000000000 ) ) ;
#97 = PERSON_AND_ORGANIZATION_ROLE ( 'classification_officer' ) ;
#98 =( NAMED_UNIT ( * ) PLANE_ANGLE_UNIT ( ) SI_UNIT ( $, .RADIAN. ) );
#99 = PERSON_AND_ORGANIZATION ( #114, #18 ) ;
#100 = VECTOR ( 'NONE', #105, 1000.000000000000000 ) ;
#101 = DIRECTION ( 'NONE',  ( -0.000000000000000000, 0.000000000000000000, 1.000000000000000000 ) ) ;
#102 = CARTESIAN_POINT ( 'NONE',  ( 0.000000000000000000, 0.000000000000000000, 0.000000000000000000 ) ) ;
#103 = DIRECTION ( 'NONE',  ( 0.000000000000000000, 0.000000000000000000, -1.000000000000000000 ) ) ;
#104 = EDGE_CURVE ( 'NONE', #117, #137, #57, .T. ) ;
#105 = DIRECTION ( 'NONE',  ( -1.000000000000000000, -0.000000000000000000, -0.000000000000000000 ) ) ;
#106 = APPLICATION_PROTOCOL_DEFINITION ( 'international standard', 'config_control_design', 1994, #77 ) ;
#107 = CLOSED_SHELL ( 'NONE', ( #112, #61, #15, #64 ) ) ;
#108 = CALENDAR_DATE ( 2020, 22, 12 ) ;
#109 = APPROVAL_ROLE ( '' ) ;
#110 = CARTESIAN_POINT ( 'NONE',  ( 0.9999999999999995559, 3.673940397442059868E-16, -3.000000000000000000 ) ) ;
#111 = CIRCLE ( 'NONE', #125, 3.000000000000000000 ) ;
#112 = ADVANCED_FACE ( 'NONE', ( #4 ), #87, .T. ) ;
#113 = PERSON_AND_ORGANIZATION ( #114, #18 ) ;
#114 = PERSON ( 'UNSPECIFIED', 'UNSPECIFIED', 'UNSPECIFIED', ('UNSPECIFIED'), ('UNSPECIFIED'), ('UNSPECIFIED') ) ;
#115 = LOCAL_TIME ( 17, 29, 26.00000000000000000, #83 ) ;
#116 = PLANE ( 'NONE',  #36 ) ;
#117 = VERTEX_POINT ( 'NONE', #110 ) ;
#118 = DIRECTION ( 'NONE',  ( 0.000000000000000000, 0.000000000000000000, 1.000000000000000000 ) ) ;
#119 = CARTESIAN_POINT ( 'NONE',  ( 0.000000000000000000, 0.000000000000000000, 0.000000000000000000 ) ) ;
#120 =( NAMED_UNIT ( * ) SI_UNIT ( $, .STERADIAN. ) SOLID_ANGLE_UNIT ( ) );
#121 = APPLICATION_PROTOCOL_DEFINITION ( 'international standard', 'config_control_design', 1994, #86 ) ;
#122 = PERSON_AND_ORGANIZATION_ROLE ( 'creator' ) ;
#123 = DIRECTION ( 'NONE',  ( -1.000000000000000000, -0.000000000000000000, -0.000000000000000000 ) ) ;
#124 = CARTESIAN_POINT ( 'NONE',  ( 1.224646799147353454E-16, 3.000000000000000000, 0.000000000000000000 ) ) ;
#125 = AXIS2_PLACEMENT_3D ( 'NONE', #30, #13, #3 ) ;
#126 = DIRECTION ( 'NONE',  ( 1.000000000000000000, 0.000000000000000000, 0.000000000000000000 ) ) ;
#127 = DIRECTION ( 'NONE',  ( -1.000000000000000000, -0.000000000000000000, -0.000000000000000000 ) ) ;
#128 = APPROVAL_ROLE ( '' ) ;
#129 = COORDINATED_UNIVERSAL_TIME_OFFSET ( 8, 0, .AHEAD. ) ;
#130 = DIRECTION ( 'NONE',  ( 0.000000000000000000, 0.000000000000000000, 1.000000000000000000 ) ) ;
#131 = APPROVAL_STATUS ( 'not_yet_approved' ) ;
#132 = COORDINATED_UNIVERSAL_TIME_OFFSET ( 8, 0, .AHEAD. ) ;
#133 = EDGE_CURVE ( 'NONE', #59, #137, #162, .T. ) ;
#134 = ORIENTED_EDGE ( 'NONE', *, *, #133, .T. ) ;
#135 = AXIS2_PLACEMENT_3D ( 'NONE', #96, #22, #47 ) ;
#136 = CC_DESIGN_APPROVAL ( #8, ( #72 ) ) ;
#137 = VERTEX_POINT ( 'NONE', #5 ) ;
#138 = CC_DESIGN_DATE_AND_TIME_ASSIGNMENT ( #31, #168, ( #35 ) ) ;
#139 = ORIENTED_EDGE ( 'NONE', *, *, #104, .F. ) ;
#140 = ORIENTED_EDGE ( 'NONE', *, *, #173, .T. ) ;
#141 = LINE ( 'NONE', #12, #100 ) ;
#142 = PERSON_AND_ORGANIZATION ( #114, #18 ) ;
#143 = DATE_AND_TIME ( #33, #158 ) ;
#144 = CARTESIAN_POINT ( 'NONE',  ( 2.449293598294706907E-16, 0.000000000000000000, 0.000000000000000000 ) ) ;
#145 = CC_DESIGN_PERSON_AND_ORGANIZATION_ASSIGNMENT ( #7, #23, ( #160 ) ) ;
#146 = DESIGN_CONTEXT ( 'detailed design', #86, 'design' ) ;
#147 = CALENDAR_DATE ( 2020, 22, 12 ) ;
#148 = DIRECTION ( 'NONE',  ( -1.000000000000000000, 0.000000000000000000, -0.000000000000000000 ) ) ;
#149 = DIRECTION ( 'NONE',  ( -1.000000000000000000, -0.000000000000000000, -0.000000000000000000 ) ) ;
#150 = CARTESIAN_POINT ( 'NONE',  ( 0.9999999999999997780, 3.000000000000000000, 0.000000000000000000 ) ) ;
#151 = ORIENTED_EDGE ( 'NONE', *, *, #164, .F. ) ;
#152 = ORIENTED_EDGE ( 'NONE', *, *, #70, .T. ) ;
#153 = DIRECTION ( 'NONE',  ( 1.000000000000000000, 0.000000000000000000, 0.000000000000000000 ) ) ;
#154 = AXIS2_PLACEMENT_3D ( 'NONE', #119, #50, #153 ) ;
#155 = COORDINATED_UNIVERSAL_TIME_OFFSET ( 8, 0, .AHEAD. ) ;
#156 = DATE_AND_TIME ( #80, #6 ) ;
#157 = DATE_AND_TIME ( #147, #81 ) ;
#158 = LOCAL_TIME ( 17, 29, 26.00000000000000000, #155 ) ;
#159 = MECHANICAL_CONTEXT ( 'NONE', #77, 'mechanical' ) ;
#160 = PRODUCT ( 'MQWP-25.4-1310', 'MQWP-25.4-1310', '', ( #159 ) ) ;
#161 = CIRCLE ( 'NONE', #89, 3.000000000000000000 ) ;
#162 = CIRCLE ( 'NONE', #10, 3.000000000000000000 ) ;
#163 = FACE_OUTER_BOUND ( 'NONE', #19, .T. ) ;
#164 = EDGE_CURVE ( 'NONE', #28, #117, #48, .T. ) ;
#165 = PERSON_AND_ORGANIZATION_ROLE ( 'creator' ) ;
#166 = APPROVAL_PERSON_ORGANIZATION ( #65, #8, #171 ) ;
#167 = APPROVAL ( #131, 'UNSPECIFIED' ) ;
#168 = DATE_TIME_ROLE ( 'creation_date' ) ;
#169 = COORDINATED_UNIVERSAL_TIME_OFFSET ( 8, 0, .AHEAD. ) ;
#170 = PERSON_AND_ORGANIZATION ( #114, #18 ) ;
#171 = APPROVAL_ROLE ( '' ) ;
#172 = SECURITY_CLASSIFICATION_LEVEL ( 'unclassified' ) ;
#173 = EDGE_CURVE ( 'NONE', #137, #59, #161, .T. ) ;
#174 = LOCAL_TIME ( 17, 29, 26.00000000000000000, #129 ) ;
#175 = PLANE ( 'NONE',  #66 ) ;
ENDSEC;
END-ISO-10303-21;
